  0
SECTION
  2
HEADER
  9
$MEASUREMENT
  70
  1
  9
$INSUNITS
  70
  4
  0
ENDSEC
  0
SECTION
  2
TABLES
  0
TABLE
  2
LTYPE
 70
     1
  0
LTYPE
  2
CONTINUOUS
 70
    64
  3
Ausgezogene Linie
 72
    65
 73
     0
 40
0.0
  0
ENDTAB
  0
TABLE
  2
LAYER
 70
     3
  0
LAYER
  2
Kontur
 70
    64
 62
     7
  6
CONTINUOUS
  0
LAYER
  2
Gravur
 70
    64
 62
     7
  6
CONTINUOUS
  0
LAYER
  2
Bezugspunkte
 70
    64
 62
     1
  6
CONTINUOUS
  0
ENDTAB
  0
TABLE
  2
STYLE
 70
     1
  0
STYLE
  2
TXT
 70
    64
 40
0.0
 41
1.0
 50
0.0
 71
     0
 42
3.500000
  3
TXT
  0
ENDTAB
  0
ENDSEC
  0
SECTION
  2
BLOCKS
  0
ENDSEC
  0
SECTION
  2
ENTITIES
  0
LINE
  8
Kontur
 62
   7
 39
0.100
  6
CONTINUOUS
 10
483.00000
 20
88.05000
 30
 0
 11
483.00000
 21
0.00000
  0
LINE
  8
Kontur
 62
   7
 39
0.100
  6
CONTINUOUS
 10
483.00000
 20
0.00000
 30
 0
 11
0.00000
 21
0.00000
  0
LINE
  8
Kontur
 62
   7
 39
0.100
  6
CONTINUOUS
 10
0.00000
 20
0.00000
 30
 0
 11
0.00000
 21
88.05000
  0
LINE
  8
Kontur
 62
   7
 39
0.100
  6
CONTINUOUS
 10
0.00000
 20
88.05000
 30
 0
 11
483.00000
 21
88.05000
  0
CIRCLE
  8
Kontur
 62
   7
 39
0.100
  6
CONTINUOUS
 10
70.00000
 20
35.00000
 30
 0
 40
3.50000
  0
CIRCLE
  8
Kontur
 62
   7
 39
0.100
  6
CONTINUOUS
 10
70.00000
 20
65.00000
 30
 0
 40
3.50000
  0
CIRCLE
  8
Kontur
 62
   7
 39
0.100
  6
CONTINUOUS
 10
90.00000
 20
20.00000
 30
 0
 40
3.50000
  0
CIRCLE
  8
Kontur
 62
   7
 39
0.100
  6
CONTINUOUS
 10
90.00000
 20
50.00000
 30
 0
 40
3.50000
  0
CIRCLE
  8
Kontur
 62
   7
 39
0.100
  6
CONTINUOUS
 10
110.00000
 20
35.00000
 30
 0
 40
3.50000
  0
CIRCLE
  8
Kontur
 62
   7
 39
0.100
  6
CONTINUOUS
 10
110.00000
 20
65.00000
 30
 0
 40
3.50000
  0
CIRCLE
  8
Kontur
 62
   7
 39
0.100
  6
CONTINUOUS
 10
130.00000
 20
20.00000
 30
 0
 40
3.50000
  0
CIRCLE
  8
Kontur
 62
   7
 39
0.100
  6
CONTINUOUS
 10
130.00000
 20
50.00000
 30
 0
 40
3.50000
  0
CIRCLE
  8
Kontur
 62
   7
 39
0.100
  6
CONTINUOUS
 10
245.00000
 20
25.00000
 30
 0
 40
3.50000
  0
CIRCLE
  8
Kontur
 62
   7
 39
0.100
  6
CONTINUOUS
 10
245.00000
 20
60.00000
 30
 0
 40
3.50000
  0
CIRCLE
  8
Kontur
 62
   7
 39
0.100
  6
CONTINUOUS
 10
280.00000
 20
25.00000
 30
 0
 40
3.50000
  0
CIRCLE
  8
Kontur
 62
   7
 39
0.100
  6
CONTINUOUS
 10
280.00000
 20
60.00000
 30
 0
 40
3.50000
  0
CIRCLE
  8
Kontur
 62
   7
 39
0.100
  6
CONTINUOUS
 10
415.00000
 20
45.00000
 30
 0
 40
3.50000
  0
CIRCLE
  8
Kontur
 62
   7
 39
0.100
  6
CONTINUOUS
 10
150.00000
 20
35.00000
 30
 0
 40
3.50000
  0
CIRCLE
  8
Kontur
 62
   7
 39
0.100
  6
CONTINUOUS
 10
150.00000
 20
65.00000
 30
 0
 40
3.50000
  0
CIRCLE
  8
Kontur
 62
   7
 39
0.100
  6
CONTINUOUS
 10
170.00000
 20
20.00000
 30
 0
 40
3.50000
  0
CIRCLE
  8
Kontur
 62
   7
 39
0.100
  6
CONTINUOUS
 10
170.00000
 20
50.00000
 30
 0
 40
3.50000
  0
CIRCLE
  8
Kontur
 62
   7
 39
0.100
  6
CONTINUOUS
 10
190.00000
 20
35.00000
 30
 0
 40
3.50000
  0
CIRCLE
  8
Kontur
 62
   7
 39
0.100
  6
CONTINUOUS
 10
190.00000
 20
65.00000
 30
 0
 40
3.50000
  0
CIRCLE
  8
Kontur
 62
   7
 39
0.100
  6
CONTINUOUS
 10
210.00000
 20
20.00000
 30
 0
 40
3.50000
  0
CIRCLE
  8
Kontur
 62
   7
 39
0.100
  6
CONTINUOUS
 10
210.00000
 20
50.00000
 30
 0
 40
3.50000
  0
CIRCLE
  8
Kontur
 62
   7
 39
0.100
  6
CONTINUOUS
 10
50.00000
 20
15.00000
 30
 0
 40
5.00000
  0
CIRCLE
  8
Kontur
 62
   7
 39
0.100
  6
CONTINUOUS
 10
45.00000
 20
55.00000
 30
 0
 40
0.50000
  0
CIRCLE
  8
Kontur
 62
   7
 39
0.100
  6
CONTINUOUS
 10
45.00000
 20
52.50000
 30
 0
 40
0.50000
  0
CIRCLE
  8
Kontur
 62
   7
 39
0.100
  6
CONTINUOUS
 10
45.00000
 20
50.00000
 30
 0
 40
0.50000
  0
CIRCLE
  8
Kontur
 62
   7
 39
0.100
  6
CONTINUOUS
 10
45.00000
 20
47.50000
 30
 0
 40
0.50000
  0
CIRCLE
  8
Kontur
 62
   7
 39
0.100
  6
CONTINUOUS
 10
45.00000
 20
45.00000
 30
 0
 40
0.50000
  0
CIRCLE
  8
Kontur
 62
   7
 39
0.100
  6
CONTINUOUS
 10
45.00000
 20
42.50000
 30
 0
 40
0.50000
  0
CIRCLE
  8
Kontur
 62
   7
 39
0.100
  6
CONTINUOUS
 10
305.00000
 20
60.00000
 30
 0
 40
3.00000
  0
CIRCLE
  8
Kontur
 62
   7
 39
0.100
  6
CONTINUOUS
 10
315.00000
 20
60.00000
 30
 0
 40
3.00000
  0
CIRCLE
  8
Kontur
 62
   7
 39
0.100
  6
CONTINUOUS
 10
325.00000
 20
60.00000
 30
 0
 40
3.00000
  0
CIRCLE
  8
Kontur
 62
   7
 39
0.100
  6
CONTINUOUS
 10
335.00000
 20
60.00000
 30
 0
 40
3.00000
  0
CIRCLE
  8
Kontur
 62
   7
 39
0.100
  6
CONTINUOUS
 10
345.00000
 20
60.00000
 30
 0
 40
3.00000
  0
CIRCLE
  8
Kontur
 62
   7
 39
0.100
  6
CONTINUOUS
 10
355.00000
 20
60.00000
 30
 0
 40
3.00000
  0
CIRCLE
  8
Kontur
 62
   7
 39
0.100
  6
CONTINUOUS
 10
365.00000
 20
60.00000
 30
 0
 40
3.00000
  0
CIRCLE
  8
Kontur
 62
   7
 39
0.100
  6
CONTINUOUS
 10
375.00000
 20
60.00000
 30
 0
 40
3.00000
  0
CIRCLE
  8
Kontur
 62
   7
 39
0.100
  6
CONTINUOUS
 10
305.00000
 20
25.00000
 30
 0
 40
3.00000
  0
CIRCLE
  8
Kontur
 62
   7
 39
0.100
  6
CONTINUOUS
 10
315.00000
 20
25.00000
 30
 0
 40
3.00000
  0
CIRCLE
  8
Kontur
 62
   7
 39
0.100
  6
CONTINUOUS
 10
325.00000
 20
25.00000
 30
 0
 40
3.00000
  0
CIRCLE
  8
Kontur
 62
   7
 39
0.100
  6
CONTINUOUS
 10
335.00000
 20
25.00000
 30
 0
 40
3.00000
  0
CIRCLE
  8
Kontur
 62
   7
 39
0.100
  6
CONTINUOUS
 10
345.00000
 20
25.00000
 30
 0
 40
3.00000
  0
CIRCLE
  8
Kontur
 62
   7
 39
0.100
  6
CONTINUOUS
 10
355.00000
 20
25.00000
 30
 0
 40
3.00000
  0
CIRCLE
  8
Kontur
 62
   7
 39
0.100
  6
CONTINUOUS
 10
365.00000
 20
25.00000
 30
 0
 40
3.00000
  0
CIRCLE
  8
Kontur
 62
   7
 39
0.100
  6
CONTINUOUS
 10
375.00000
 20
25.00000
 30
 0
 40
3.00000
  0
LINE
  8
Bezugspunkte
 62
   1
 39
0.100
  6
CONTINUOUS
 10
-3.12200
 20
0.00000
 30
 0
 11
3.12200
 21
0.00000
  0
LINE
  8
Bezugspunkte
 62
   1
 39
0.100
  6
CONTINUOUS
 10
0.00000
 20
-3.12200
 30
 0
 11
0.00000
 21
3.12200
  0
LINE
  8
Bezugspunkte
 62
   1
 39
0.100
  6
CONTINUOUS
 10
66.87800
 20
35.00000
 30
 0
 11
73.12200
 21
35.00000
  0
LINE
  8
Bezugspunkte
 62
   1
 39
0.100
  6
CONTINUOUS
 10
70.00000
 20
31.87800
 30
 0
 11
70.00000
 21
38.12200
  0
LINE
  8
Bezugspunkte
 62
   1
 39
0.100
  6
CONTINUOUS
 10
66.87800
 20
65.00000
 30
 0
 11
73.12200
 21
65.00000
  0
LINE
  8
Bezugspunkte
 62
   1
 39
0.100
  6
CONTINUOUS
 10
70.00000
 20
61.87800
 30
 0
 11
70.00000
 21
68.12200
  0
LINE
  8
Bezugspunkte
 62
   1
 39
0.100
  6
CONTINUOUS
 10
86.87800
 20
20.00000
 30
 0
 11
93.12200
 21
20.00000
  0
LINE
  8
Bezugspunkte
 62
   1
 39
0.100
  6
CONTINUOUS
 10
90.00000
 20
16.87800
 30
 0
 11
90.00000
 21
23.12200
  0
LINE
  8
Bezugspunkte
 62
   1
 39
0.100
  6
CONTINUOUS
 10
86.87800
 20
50.00000
 30
 0
 11
93.12200
 21
50.00000
  0
LINE
  8
Bezugspunkte
 62
   1
 39
0.100
  6
CONTINUOUS
 10
90.00000
 20
46.87800
 30
 0
 11
90.00000
 21
53.12200
  0
LINE
  8
Bezugspunkte
 62
   1
 39
0.100
  6
CONTINUOUS
 10
106.87800
 20
35.00000
 30
 0
 11
113.12200
 21
35.00000
  0
LINE
  8
Bezugspunkte
 62
   1
 39
0.100
  6
CONTINUOUS
 10
110.00000
 20
31.87800
 30
 0
 11
110.00000
 21
38.12200
  0
LINE
  8
Bezugspunkte
 62
   1
 39
0.100
  6
CONTINUOUS
 10
106.87800
 20
65.00000
 30
 0
 11
113.12200
 21
65.00000
  0
LINE
  8
Bezugspunkte
 62
   1
 39
0.100
  6
CONTINUOUS
 10
110.00000
 20
61.87800
 30
 0
 11
110.00000
 21
68.12200
  0
LINE
  8
Bezugspunkte
 62
   1
 39
0.100
  6
CONTINUOUS
 10
126.87800
 20
20.00000
 30
 0
 11
133.12200
 21
20.00000
  0
LINE
  8
Bezugspunkte
 62
   1
 39
0.100
  6
CONTINUOUS
 10
130.00000
 20
16.87800
 30
 0
 11
130.00000
 21
23.12200
  0
LINE
  8
Bezugspunkte
 62
   1
 39
0.100
  6
CONTINUOUS
 10
126.87800
 20
50.00000
 30
 0
 11
133.12200
 21
50.00000
  0
LINE
  8
Bezugspunkte
 62
   1
 39
0.100
  6
CONTINUOUS
 10
130.00000
 20
46.87800
 30
 0
 11
130.00000
 21
53.12200
  0
LINE
  8
Bezugspunkte
 62
   1
 39
0.100
  6
CONTINUOUS
 10
241.87800
 20
25.00000
 30
 0
 11
248.12200
 21
25.00000
  0
LINE
  8
Bezugspunkte
 62
   1
 39
0.100
  6
CONTINUOUS
 10
245.00000
 20
21.87800
 30
 0
 11
245.00000
 21
28.12200
  0
LINE
  8
Bezugspunkte
 62
   1
 39
0.100
  6
CONTINUOUS
 10
241.87800
 20
60.00000
 30
 0
 11
248.12200
 21
60.00000
  0
LINE
  8
Bezugspunkte
 62
   1
 39
0.100
  6
CONTINUOUS
 10
245.00000
 20
56.87800
 30
 0
 11
245.00000
 21
63.12200
  0
LINE
  8
Bezugspunkte
 62
   1
 39
0.100
  6
CONTINUOUS
 10
276.87800
 20
25.00000
 30
 0
 11
283.12200
 21
25.00000
  0
LINE
  8
Bezugspunkte
 62
   1
 39
0.100
  6
CONTINUOUS
 10
280.00000
 20
21.87800
 30
 0
 11
280.00000
 21
28.12200
  0
LINE
  8
Bezugspunkte
 62
   1
 39
0.100
  6
CONTINUOUS
 10
276.87800
 20
60.00000
 30
 0
 11
283.12200
 21
60.00000
  0
LINE
  8
Bezugspunkte
 62
   1
 39
0.100
  6
CONTINUOUS
 10
280.00000
 20
56.87800
 30
 0
 11
280.00000
 21
63.12200
  0
LINE
  8
Bezugspunkte
 62
   1
 39
0.100
  6
CONTINUOUS
 10
411.87800
 20
45.00000
 30
 0
 11
418.12200
 21
45.00000
  0
LINE
  8
Bezugspunkte
 62
   1
 39
0.100
  6
CONTINUOUS
 10
415.00000
 20
41.87800
 30
 0
 11
415.00000
 21
48.12200
  0
LINE
  8
Bezugspunkte
 62
   1
 39
0.100
  6
CONTINUOUS
 10
146.87800
 20
35.00000
 30
 0
 11
153.12200
 21
35.00000
  0
LINE
  8
Bezugspunkte
 62
   1
 39
0.100
  6
CONTINUOUS
 10
150.00000
 20
31.87800
 30
 0
 11
150.00000
 21
38.12200
  0
LINE
  8
Bezugspunkte
 62
   1
 39
0.100
  6
CONTINUOUS
 10
146.87800
 20
65.00000
 30
 0
 11
153.12200
 21
65.00000
  0
LINE
  8
Bezugspunkte
 62
   1
 39
0.100
  6
CONTINUOUS
 10
150.00000
 20
61.87800
 30
 0
 11
150.00000
 21
68.12200
  0
LINE
  8
Bezugspunkte
 62
   1
 39
0.100
  6
CONTINUOUS
 10
166.87800
 20
20.00000
 30
 0
 11
173.12200
 21
20.00000
  0
LINE
  8
Bezugspunkte
 62
   1
 39
0.100
  6
CONTINUOUS
 10
170.00000
 20
16.87800
 30
 0
 11
170.00000
 21
23.12200
  0
LINE
  8
Bezugspunkte
 62
   1
 39
0.100
  6
CONTINUOUS
 10
166.87800
 20
50.00000
 30
 0
 11
173.12200
 21
50.00000
  0
LINE
  8
Bezugspunkte
 62
   1
 39
0.100
  6
CONTINUOUS
 10
170.00000
 20
46.87800
 30
 0
 11
170.00000
 21
53.12200
  0
LINE
  8
Bezugspunkte
 62
   1
 39
0.100
  6
CONTINUOUS
 10
186.87800
 20
35.00000
 30
 0
 11
193.12200
 21
35.00000
  0
LINE
  8
Bezugspunkte
 62
   1
 39
0.100
  6
CONTINUOUS
 10
190.00000
 20
31.87800
 30
 0
 11
190.00000
 21
38.12200
  0
LINE
  8
Bezugspunkte
 62
   1
 39
0.100
  6
CONTINUOUS
 10
186.87800
 20
65.00000
 30
 0
 11
193.12200
 21
65.00000
  0
LINE
  8
Bezugspunkte
 62
   1
 39
0.100
  6
CONTINUOUS
 10
190.00000
 20
61.87800
 30
 0
 11
190.00000
 21
68.12200
  0
LINE
  8
Bezugspunkte
 62
   1
 39
0.100
  6
CONTINUOUS
 10
206.87800
 20
20.00000
 30
 0
 11
213.12200
 21
20.00000
  0
LINE
  8
Bezugspunkte
 62
   1
 39
0.100
  6
CONTINUOUS
 10
210.00000
 20
16.87800
 30
 0
 11
210.00000
 21
23.12200
  0
LINE
  8
Bezugspunkte
 62
   1
 39
0.100
  6
CONTINUOUS
 10
206.87800
 20
50.00000
 30
 0
 11
213.12200
 21
50.00000
  0
LINE
  8
Bezugspunkte
 62
   1
 39
0.100
  6
CONTINUOUS
 10
210.00000
 20
46.87800
 30
 0
 11
210.00000
 21
53.12200
  0
LINE
  8
Bezugspunkte
 62
   1
 39
0.100
  6
CONTINUOUS
 10
46.87800
 20
15.00000
 30
 0
 11
53.12200
 21
15.00000
  0
LINE
  8
Bezugspunkte
 62
   1
 39
0.100
  6
CONTINUOUS
 10
50.00000
 20
11.87800
 30
 0
 11
50.00000
 21
18.12200
  0
LINE
  8
Bezugspunkte
 62
   1
 39
0.100
  6
CONTINUOUS
 10
41.87800
 20
55.00000
 30
 0
 11
48.12200
 21
55.00000
  0
LINE
  8
Bezugspunkte
 62
   1
 39
0.100
  6
CONTINUOUS
 10
45.00000
 20
51.87800
 30
 0
 11
45.00000
 21
58.12200
  0
LINE
  8
Bezugspunkte
 62
   1
 39
0.100
  6
CONTINUOUS
 10
41.87800
 20
52.50000
 30
 0
 11
48.12200
 21
52.50000
  0
LINE
  8
Bezugspunkte
 62
   1
 39
0.100
  6
CONTINUOUS
 10
45.00000
 20
49.37800
 30
 0
 11
45.00000
 21
55.62200
  0
LINE
  8
Bezugspunkte
 62
   1
 39
0.100
  6
CONTINUOUS
 10
41.87800
 20
50.00000
 30
 0
 11
48.12200
 21
50.00000
  0
LINE
  8
Bezugspunkte
 62
   1
 39
0.100
  6
CONTINUOUS
 10
45.00000
 20
46.87800
 30
 0
 11
45.00000
 21
53.12200
  0
LINE
  8
Bezugspunkte
 62
   1
 39
0.100
  6
CONTINUOUS
 10
41.87800
 20
47.50000
 30
 0
 11
48.12200
 21
47.50000
  0
LINE
  8
Bezugspunkte
 62
   1
 39
0.100
  6
CONTINUOUS
 10
45.00000
 20
44.37800
 30
 0
 11
45.00000
 21
50.62200
  0
LINE
  8
Bezugspunkte
 62
   1
 39
0.100
  6
CONTINUOUS
 10
41.87800
 20
45.00000
 30
 0
 11
48.12200
 21
45.00000
  0
LINE
  8
Bezugspunkte
 62
   1
 39
0.100
  6
CONTINUOUS
 10
45.00000
 20
41.87800
 30
 0
 11
45.00000
 21
48.12200
  0
LINE
  8
Bezugspunkte
 62
   1
 39
0.100
  6
CONTINUOUS
 10
41.87800
 20
42.50000
 30
 0
 11
48.12200
 21
42.50000
  0
LINE
  8
Bezugspunkte
 62
   1
 39
0.100
  6
CONTINUOUS
 10
45.00000
 20
39.37800
 30
 0
 11
45.00000
 21
45.62200
  0
LINE
  8
Bezugspunkte
 62
   1
 39
0.100
  6
CONTINUOUS
 10
301.87800
 20
60.00000
 30
 0
 11
308.12200
 21
60.00000
  0
LINE
  8
Bezugspunkte
 62
   1
 39
0.100
  6
CONTINUOUS
 10
305.00000
 20
56.87800
 30
 0
 11
305.00000
 21
63.12200
  0
LINE
  8
Bezugspunkte
 62
   1
 39
0.100
  6
CONTINUOUS
 10
311.87800
 20
60.00000
 30
 0
 11
318.12200
 21
60.00000
  0
LINE
  8
Bezugspunkte
 62
   1
 39
0.100
  6
CONTINUOUS
 10
315.00000
 20
56.87800
 30
 0
 11
315.00000
 21
63.12200
  0
LINE
  8
Bezugspunkte
 62
   1
 39
0.100
  6
CONTINUOUS
 10
321.87800
 20
60.00000
 30
 0
 11
328.12200
 21
60.00000
  0
LINE
  8
Bezugspunkte
 62
   1
 39
0.100
  6
CONTINUOUS
 10
325.00000
 20
56.87800
 30
 0
 11
325.00000
 21
63.12200
  0
LINE
  8
Bezugspunkte
 62
   1
 39
0.100
  6
CONTINUOUS
 10
331.87800
 20
60.00000
 30
 0
 11
338.12200
 21
60.00000
  0
LINE
  8
Bezugspunkte
 62
   1
 39
0.100
  6
CONTINUOUS
 10
335.00000
 20
56.87800
 30
 0
 11
335.00000
 21
63.12200
  0
LINE
  8
Bezugspunkte
 62
   1
 39
0.100
  6
CONTINUOUS
 10
341.87800
 20
60.00000
 30
 0
 11
348.12200
 21
60.00000
  0
LINE
  8
Bezugspunkte
 62
   1
 39
0.100
  6
CONTINUOUS
 10
345.00000
 20
56.87800
 30
 0
 11
345.00000
 21
63.12200
  0
LINE
  8
Bezugspunkte
 62
   1
 39
0.100
  6
CONTINUOUS
 10
351.87800
 20
60.00000
 30
 0
 11
358.12200
 21
60.00000
  0
LINE
  8
Bezugspunkte
 62
   1
 39
0.100
  6
CONTINUOUS
 10
355.00000
 20
56.87800
 30
 0
 11
355.00000
 21
63.12200
  0
LINE
  8
Bezugspunkte
 62
   1
 39
0.100
  6
CONTINUOUS
 10
361.87800
 20
60.00000
 30
 0
 11
368.12200
 21
60.00000
  0
LINE
  8
Bezugspunkte
 62
   1
 39
0.100
  6
CONTINUOUS
 10
365.00000
 20
56.87800
 30
 0
 11
365.00000
 21
63.12200
  0
LINE
  8
Bezugspunkte
 62
   1
 39
0.100
  6
CONTINUOUS
 10
371.87800
 20
60.00000
 30
 0
 11
378.12200
 21
60.00000
  0
LINE
  8
Bezugspunkte
 62
   1
 39
0.100
  6
CONTINUOUS
 10
375.00000
 20
56.87800
 30
 0
 11
375.00000
 21
63.12200
  0
LINE
  8
Bezugspunkte
 62
   1
 39
0.100
  6
CONTINUOUS
 10
301.87800
 20
25.00000
 30
 0
 11
308.12200
 21
25.00000
  0
LINE
  8
Bezugspunkte
 62
   1
 39
0.100
  6
CONTINUOUS
 10
305.00000
 20
21.87800
 30
 0
 11
305.00000
 21
28.12200
  0
LINE
  8
Bezugspunkte
 62
   1
 39
0.100
  6
CONTINUOUS
 10
311.87800
 20
25.00000
 30
 0
 11
318.12200
 21
25.00000
  0
LINE
  8
Bezugspunkte
 62
   1
 39
0.100
  6
CONTINUOUS
 10
315.00000
 20
21.87800
 30
 0
 11
315.00000
 21
28.12200
  0
LINE
  8
Bezugspunkte
 62
   1
 39
0.100
  6
CONTINUOUS
 10
321.87800
 20
25.00000
 30
 0
 11
328.12200
 21
25.00000
  0
LINE
  8
Bezugspunkte
 62
   1
 39
0.100
  6
CONTINUOUS
 10
325.00000
 20
21.87800
 30
 0
 11
325.00000
 21
28.12200
  0
LINE
  8
Bezugspunkte
 62
   1
 39
0.100
  6
CONTINUOUS
 10
331.87800
 20
25.00000
 30
 0
 11
338.12200
 21
25.00000
  0
LINE
  8
Bezugspunkte
 62
   1
 39
0.100
  6
CONTINUOUS
 10
335.00000
 20
21.87800
 30
 0
 11
335.00000
 21
28.12200
  0
LINE
  8
Bezugspunkte
 62
   1
 39
0.100
  6
CONTINUOUS
 10
341.87800
 20
25.00000
 30
 0
 11
348.12200
 21
25.00000
  0
LINE
  8
Bezugspunkte
 62
   1
 39
0.100
  6
CONTINUOUS
 10
345.00000
 20
21.87800
 30
 0
 11
345.00000
 21
28.12200
  0
LINE
  8
Bezugspunkte
 62
   1
 39
0.100
  6
CONTINUOUS
 10
351.87800
 20
25.00000
 30
 0
 11
358.12200
 21
25.00000
  0
LINE
  8
Bezugspunkte
 62
   1
 39
0.100
  6
CONTINUOUS
 10
355.00000
 20
21.87800
 30
 0
 11
355.00000
 21
28.12200
  0
LINE
  8
Bezugspunkte
 62
   1
 39
0.100
  6
CONTINUOUS
 10
361.87800
 20
25.00000
 30
 0
 11
368.12200
 21
25.00000
  0
LINE
  8
Bezugspunkte
 62
   1
 39
0.100
  6
CONTINUOUS
 10
365.00000
 20
21.87800
 30
 0
 11
365.00000
 21
28.12200
  0
LINE
  8
Bezugspunkte
 62
   1
 39
0.100
  6
CONTINUOUS
 10
371.87800
 20
25.00000
 30
 0
 11
378.12200
 21
25.00000
  0
LINE
  8
Bezugspunkte
 62
   1
 39
0.100
  6
CONTINUOUS
 10
375.00000
 20
21.87800
 30
 0
 11
375.00000
 21
28.12200
  0
ENDSEC
  0
EOF
