  0
SECTION
  2
HEADER
  9
$MEASUREMENT
  70
  1
  9
$INSUNITS
  70
  4
  0
ENDSEC
  0
SECTION
  2
TABLES
  0
TABLE
  2
LTYPE
 70
     1
  0
LTYPE
  2
CONTINUOUS
 70
    64
  3
Ausgezogene Linie
 72
    65
 73
     0
 40
0.0
  0
ENDTAB
  0
TABLE
  2
LAYER
 70
     3
  0
LAYER
  2
Kontur
 70
    64
 62
     7
  6
CONTINUOUS
  0
LAYER
  2
Gravur
 70
    64
 62
     7
  6
CONTINUOUS
  0
LAYER
  2
Bezugspunkte
 70
    64
 62
     1
  6
CONTINUOUS
  0
ENDTAB
  0
TABLE
  2
STYLE
 70
     1
  0
STYLE
  2
TXT
 70
    64
 40
0.0
 41
1.0
 50
0.0
 71
     0
 42
3.500000
  3
TXT
  0
ENDTAB
  0
ENDSEC
  0
SECTION
  2
BLOCKS
  0
ENDSEC
  0
SECTION
  2
ENTITIES
  0
LINE
  8
Kontur
 62
   7
 39
0.100
  6
CONTINUOUS
 10
160.00000
 20
77.00000
 30
 0
 11
0.00000
 21
77.00000
  0
LINE
  8
Kontur
 62
   7
 39
0.100
  6
CONTINUOUS
 10
0.00000
 20
77.00000
 30
 0
 11
0.00000
 21
77.00000
  0
LINE
  8
Kontur
 62
   7
 39
0.100
  6
CONTINUOUS
 10
0.00000
 20
77.00000
 30
 0
 11
0.00000
 21
0.00000
  0
LINE
  8
Kontur
 62
   7
 39
0.100
  6
CONTINUOUS
 10
0.00000
 20
0.00000
 30
 0
 11
0.00000
 21
0.00000
  0
LINE
  8
Kontur
 62
   7
 39
0.100
  6
CONTINUOUS
 10
0.00000
 20
0.00000
 30
 0
 11
160.00000
 21
0.00000
  0
LINE
  8
Kontur
 62
   7
 39
0.100
  6
CONTINUOUS
 10
160.00000
 20
0.00000
 30
 0
 11
160.00000
 21
0.00000
  0
LINE
  8
Kontur
 62
   7
 39
0.100
  6
CONTINUOUS
 10
160.00000
 20
0.00000
 30
 0
 11
160.00000
 21
77.00000
  0
LINE
  8
Kontur
 62
   7
 39
0.100
  6
CONTINUOUS
 10
160.00000
 20
77.00000
 30
 0
 11
160.00000
 21
77.00000
  0
ARC
  8
Kontur
 62
   7
 39
0.100
  6
CONTINUOUS
 10
60.73200
 20
46.42800
 30
 0
 40
1.75000
 50
76.51955
 51
175.11396
  0
LINE
  8
Kontur
 62
   7
 39
0.100
  6
CONTINUOUS
 10
58.98900
 20
46.57700
 30
 0
 11
58.98900
 21
46.57700
  0
ARC
  8
Kontur
 62
   7
 39
0.100
  6
CONTINUOUS
 10
60.73200
 20
46.42800
 30
 0
 40
1.74900
 50
175.11396
 51
256.58323
  0
ARC
  8
Kontur
 62
   7
 39
0.100
  6
CONTINUOUS
 10
58.00000
 20
35.00000
 30
 0
 40
10.00000
 50
373.44983
 51
76.55017
  0
ARC
  8
Kontur
 62
   7
 39
0.100
  6
CONTINUOUS
 10
69.42800
 20
37.73200
 30
 0
 40
1.75000
 50
-166.58323
 51
-85.11396
  0
LINE
  8
Kontur
 62
   7
 39
0.100
  6
CONTINUOUS
 10
69.57700
 20
35.98900
 30
 0
 11
69.57700
 21
35.98900
  0
ARC
  8
Kontur
 62
   7
 39
0.100
  6
CONTINUOUS
 10
69.42800
 20
37.73200
 30
 0
 40
1.74900
 50
-85.11396
 51
13.48045
  0
ARC
  8
Kontur
 62
   7
 39
0.100
  6
CONTINUOUS
 10
58.00000
 20
35.00000
 30
 0
 40
13.50000
 50
13.44951
 51
76.55049
  0
ARC
  8
Kontur
 62
   7
 39
0.100
  6
CONTINUOUS
 10
46.57200
 20
37.73200
 30
 0
 40
1.75000
 50
166.51955
 51
265.11396
  0
LINE
  8
Kontur
 62
   7
 39
0.100
  6
CONTINUOUS
 10
46.42300
 20
35.98900
 30
 0
 11
46.42300
 21
35.98900
  0
ARC
  8
Kontur
 62
   7
 39
0.100
  6
CONTINUOUS
 10
46.57200
 20
37.73200
 30
 0
 40
1.74900
 50
-94.88604
 51
-13.41677
  0
ARC
  8
Kontur
 62
   7
 39
0.100
  6
CONTINUOUS
 10
58.00000
 20
35.00000
 30
 0
 40
10.00000
 50
463.44983
 51
166.55017
  0
ARC
  8
Kontur
 62
   7
 39
0.100
  6
CONTINUOUS
 10
55.26800
 20
46.42800
 30
 0
 40
1.75000
 50
-76.58323
 51
4.88604
  0
LINE
  8
Kontur
 62
   7
 39
0.100
  6
CONTINUOUS
 10
57.01100
 20
46.57700
 30
 0
 11
57.01100
 21
46.57700
  0
ARC
  8
Kontur
 62
   7
 39
0.100
  6
CONTINUOUS
 10
55.26800
 20
46.42800
 30
 0
 40
1.74900
 50
4.88604
 51
103.48045
  0
ARC
  8
Kontur
 62
   7
 39
0.100
  6
CONTINUOUS
 10
58.00000
 20
35.00000
 30
 0
 40
13.50000
 50
103.44951
 51
166.55049
  0
ARC
  8
Kontur
 62
   7
 39
0.100
  6
CONTINUOUS
 10
55.26800
 20
23.57200
 30
 0
 40
1.75000
 50
-103.48045
 51
-4.88604
  0
LINE
  8
Kontur
 62
   7
 39
0.100
  6
CONTINUOUS
 10
57.01100
 20
23.42300
 30
 0
 11
57.01100
 21
23.42300
  0
ARC
  8
Kontur
 62
   7
 39
0.100
  6
CONTINUOUS
 10
55.26800
 20
23.57200
 30
 0
 40
1.74900
 50
-4.88604
 51
76.58323
  0
ARC
  8
Kontur
 62
   7
 39
0.100
  6
CONTINUOUS
 10
58.00000
 20
35.00000
 30
 0
 40
10.00000
 50
193.44983
 51
-103.44983
  0
ARC
  8
Kontur
 62
   7
 39
0.100
  6
CONTINUOUS
 10
46.57200
 20
32.26800
 30
 0
 40
1.75000
 50
13.41677
 51
94.88604
  0
LINE
  8
Kontur
 62
   7
 39
0.100
  6
CONTINUOUS
 10
46.42300
 20
34.01100
 30
 0
 11
46.42300
 21
34.01100
  0
ARC
  8
Kontur
 62
   7
 39
0.100
  6
CONTINUOUS
 10
46.57200
 20
32.26800
 30
 0
 40
1.74900
 50
94.88604
 51
193.48045
  0
ARC
  8
Kontur
 62
   7
 39
0.100
  6
CONTINUOUS
 10
58.00000
 20
35.00000
 30
 0
 40
13.50000
 50
-166.55049
 51
-103.44951
  0
ARC
  8
Kontur
 62
   7
 39
0.100
  6
CONTINUOUS
 10
69.42800
 20
32.26800
 30
 0
 40
1.75000
 50
-13.48045
 51
85.11396
  0
LINE
  8
Kontur
 62
   7
 39
0.100
  6
CONTINUOUS
 10
69.57700
 20
34.01100
 30
 0
 11
69.57700
 21
34.01100
  0
ARC
  8
Kontur
 62
   7
 39
0.100
  6
CONTINUOUS
 10
69.42800
 20
32.26800
 30
 0
 40
1.74900
 50
85.11396
 51
166.58323
  0
ARC
  8
Kontur
 62
   7
 39
0.100
  6
CONTINUOUS
 10
58.00000
 20
35.00000
 30
 0
 40
10.00000
 50
283.44983
 51
-13.44983
  0
ARC
  8
Kontur
 62
   7
 39
0.100
  6
CONTINUOUS
 10
60.73200
 20
23.57200
 30
 0
 40
1.75000
 50
103.41677
 51
184.88604
  0
LINE
  8
Kontur
 62
   7
 39
0.100
  6
CONTINUOUS
 10
58.98900
 20
23.42300
 30
 0
 11
58.98900
 21
23.42300
  0
ARC
  8
Kontur
 62
   7
 39
0.100
  6
CONTINUOUS
 10
60.73200
 20
23.57200
 30
 0
 40
1.74900
 50
-175.11396
 51
-76.51955
  0
ARC
  8
Kontur
 62
   7
 39
0.100
  6
CONTINUOUS
 10
58.00000
 20
35.00000
 30
 0
 40
13.50000
 50
-76.55049
 51
-13.44951
  0
ARC
  8
Kontur
 62
   7
 39
0.100
  6
CONTINUOUS
 10
60.74200
 20
52.03100
 30
 0
 40
1.75000
 50
80.86059
 51
176.69122
  0
LINE
  8
Kontur
 62
   7
 39
0.100
  6
CONTINUOUS
 10
58.99500
 20
52.13200
 30
 0
 11
58.99500
 21
52.13200
  0
ARC
  8
Kontur
 62
   7
 39
0.100
  6
CONTINUOUS
 10
60.74200
 20
52.03100
 30
 0
 40
1.75000
 50
176.69122
 51
260.86059
  0
ARC
  8
Kontur
 62
   7
 39
0.100
  6
CONTINUOUS
 10
58.00000
 20
35.00000
 30
 0
 40
15.50000
 50
369.14693
 51
80.85307
  0
ARC
  8
Kontur
 62
   7
 39
0.100
  6
CONTINUOUS
 10
75.03100
 20
37.74200
 30
 0
 40
1.75000
 50
-170.86059
 51
-86.69122
  0
LINE
  8
Kontur
 62
   7
 39
0.100
  6
CONTINUOUS
 10
75.13200
 20
35.99500
 30
 0
 11
75.13200
 21
35.99500
  0
ARC
  8
Kontur
 62
   7
 39
0.100
  6
CONTINUOUS
 10
75.03100
 20
37.74200
 30
 0
 40
1.75000
 50
-86.69122
 51
9.13941
  0
ARC
  8
Kontur
 62
   7
 39
0.100
  6
CONTINUOUS
 10
58.00000
 20
35.00000
 30
 0
 40
19.00100
 50
9.14554
 51
80.85446
  0
ARC
  8
Kontur
 62
   7
 39
0.100
  6
CONTINUOUS
 10
40.96900
 20
37.74200
 30
 0
 40
1.75000
 50
170.86059
 51
266.69122
  0
LINE
  8
Kontur
 62
   7
 39
0.100
  6
CONTINUOUS
 10
40.86800
 20
35.99500
 30
 0
 11
40.86800
 21
35.99500
  0
ARC
  8
Kontur
 62
   7
 39
0.100
  6
CONTINUOUS
 10
40.96900
 20
37.74200
 30
 0
 40
1.75000
 50
-93.30878
 51
-9.13941
  0
ARC
  8
Kontur
 62
   7
 39
0.100
  6
CONTINUOUS
 10
58.00000
 20
35.00000
 30
 0
 40
15.50000
 50
459.14693
 51
170.85307
  0
ARC
  8
Kontur
 62
   7
 39
0.100
  6
CONTINUOUS
 10
55.25800
 20
52.03100
 30
 0
 40
1.75000
 50
-80.86059
 51
3.30878
  0
LINE
  8
Kontur
 62
   7
 39
0.100
  6
CONTINUOUS
 10
57.00500
 20
52.13200
 30
 0
 11
57.00500
 21
52.13200
  0
ARC
  8
Kontur
 62
   7
 39
0.100
  6
CONTINUOUS
 10
55.25800
 20
52.03100
 30
 0
 40
1.75000
 50
3.30878
 51
99.13941
  0
ARC
  8
Kontur
 62
   7
 39
0.100
  6
CONTINUOUS
 10
58.00000
 20
35.00000
 30
 0
 40
19.00100
 50
99.14554
 51
170.85446
  0
ARC
  8
Kontur
 62
   7
 39
0.100
  6
CONTINUOUS
 10
55.25800
 20
17.96900
 30
 0
 40
1.75000
 50
-99.13941
 51
-3.30878
  0
LINE
  8
Kontur
 62
   7
 39
0.100
  6
CONTINUOUS
 10
57.00500
 20
17.86800
 30
 0
 11
57.00500
 21
17.86800
  0
ARC
  8
Kontur
 62
   7
 39
0.100
  6
CONTINUOUS
 10
55.25800
 20
17.96900
 30
 0
 40
1.75000
 50
-3.30878
 51
80.86059
  0
ARC
  8
Kontur
 62
   7
 39
0.100
  6
CONTINUOUS
 10
58.00000
 20
35.00000
 30
 0
 40
15.50000
 50
189.14693
 51
-99.14693
  0
ARC
  8
Kontur
 62
   7
 39
0.100
  6
CONTINUOUS
 10
40.96900
 20
32.25800
 30
 0
 40
1.75000
 50
9.13941
 51
93.30878
  0
LINE
  8
Kontur
 62
   7
 39
0.100
  6
CONTINUOUS
 10
40.86800
 20
34.00500
 30
 0
 11
40.86800
 21
34.00500
  0
ARC
  8
Kontur
 62
   7
 39
0.100
  6
CONTINUOUS
 10
40.96900
 20
32.25800
 30
 0
 40
1.75000
 50
93.30878
 51
189.13941
  0
ARC
  8
Kontur
 62
   7
 39
0.100
  6
CONTINUOUS
 10
58.00000
 20
35.00000
 30
 0
 40
19.00100
 50
-170.85446
 51
-99.14554
  0
ARC
  8
Kontur
 62
   7
 39
0.100
  6
CONTINUOUS
 10
75.03100
 20
32.25800
 30
 0
 40
1.75000
 50
-9.13941
 51
86.69122
  0
LINE
  8
Kontur
 62
   7
 39
0.100
  6
CONTINUOUS
 10
75.13200
 20
34.00500
 30
 0
 11
75.13200
 21
34.00500
  0
ARC
  8
Kontur
 62
   7
 39
0.100
  6
CONTINUOUS
 10
75.03100
 20
32.25800
 30
 0
 40
1.75000
 50
86.69122
 51
170.86059
  0
ARC
  8
Kontur
 62
   7
 39
0.100
  6
CONTINUOUS
 10
58.00000
 20
35.00000
 30
 0
 40
15.50000
 50
279.14693
 51
-9.14693
  0
ARC
  8
Kontur
 62
   7
 39
0.100
  6
CONTINUOUS
 10
60.74200
 20
17.96900
 30
 0
 40
1.75000
 50
99.13941
 51
183.30878
  0
LINE
  8
Kontur
 62
   7
 39
0.100
  6
CONTINUOUS
 10
58.99500
 20
17.86800
 30
 0
 11
58.99500
 21
17.86800
  0
ARC
  8
Kontur
 62
   7
 39
0.100
  6
CONTINUOUS
 10
60.74200
 20
17.96900
 30
 0
 40
1.75000
 50
-176.69122
 51
-80.86059
  0
ARC
  8
Kontur
 62
   7
 39
0.100
  6
CONTINUOUS
 10
58.00000
 20
35.00000
 30
 0
 40
19.00100
 50
-80.85446
 51
-9.14554
  0
CIRCLE
  8
Kontur
 62
   7
 39
0.100
  6
CONTINUOUS
 10
74.00000
 20
51.00000
 30
 0
 40
1.60000
  0
CIRCLE
  8
Kontur
 62
   7
 39
0.100
  6
CONTINUOUS
 10
42.00000
 20
51.00000
 30
 0
 40
1.60000
  0
CIRCLE
  8
Kontur
 62
   7
 39
0.100
  6
CONTINUOUS
 10
42.00000
 20
19.00000
 30
 0
 40
1.60000
  0
CIRCLE
  8
Kontur
 62
   7
 39
0.100
  6
CONTINUOUS
 10
74.00000
 20
19.00000
 30
 0
 40
1.60000
  0
ENDSEC
  0
EOF
